ISO-10303-21;
HEADER;
FILE_DESCRIPTION((''),'2;1');
FILE_NAME('43257-00','2025-12-10T16:32:53',('julian.egg'),(''),
'CREO PARAMETRIC BY PTC INC, 2025323','CREO PARAMETRIC BY PTC INC, 2025323','');
FILE_SCHEMA(('CONFIG_CONTROL_DESIGN'));
ENDSEC;
DATA;
#1=CARTESIAN_POINT('',(0.E0,-4.E1,0.E0));
#2=DIRECTION('',(0.E0,-1.E0,0.E0));
#3=DIRECTION('',(0.E0,0.E0,-1.E0));
#4=AXIS2_PLACEMENT_3D('',#1,#2,#3);
#6=DIRECTION('',(0.E0,1.E0,0.E0));
#7=VECTOR('',#6,3.7E1);
#8=CARTESIAN_POINT('',(2.530936718238E-14,-4.E1,-3.1E2));
#9=LINE('',#8,#7);
#10=DIRECTION('',(0.E0,1.E0,0.E0));
#11=VECTOR('',#10,3.7E1);
#12=CARTESIAN_POINT('',(-2.530936718238E-14,-4.E1,3.1E2));
#13=LINE('',#12,#11);
#14=CARTESIAN_POINT('',(0.E0,-4.E1,0.E0));
#15=DIRECTION('',(0.E0,1.E0,0.E0));
#16=DIRECTION('',(0.E0,0.E0,-1.E0));
#17=AXIS2_PLACEMENT_3D('',#14,#15,#16);
#19=CARTESIAN_POINT('',(3.729049503404E-14,-3.E0,-3.045E2));
#20=DIRECTION('',(1.E0,0.E0,0.E0));
#21=DIRECTION('',(0.E0,0.E0,-1.E0));
#22=AXIS2_PLACEMENT_3D('',#19,#20,#21);
#24=CARTESIAN_POINT('',(-7.458099006807E-14,-3.E0,3.045E2));
#25=DIRECTION('',(-1.E0,0.E0,0.E0));
#26=DIRECTION('',(0.E0,0.E0,1.E0));
#27=AXIS2_PLACEMENT_3D('',#24,#25,#26);
#29=CARTESIAN_POINT('',(0.E0,-3.E0,0.E0));
#30=DIRECTION('',(0.E0,1.E0,0.E0));
#31=DIRECTION('',(0.E0,0.E0,-1.E0));
#32=AXIS2_PLACEMENT_3D('',#29,#30,#31);
#34=CARTESIAN_POINT('',(0.E0,-3.E0,0.E0));
#35=DIRECTION('',(0.E0,-1.E0,0.E0));
#36=DIRECTION('',(0.E0,0.E0,-1.E0));
#37=AXIS2_PLACEMENT_3D('',#34,#35,#36);
#39=CARTESIAN_POINT('',(0.E0,2.5E0,0.E0));
#40=DIRECTION('',(0.E0,1.E0,0.E0));
#41=DIRECTION('',(0.E0,0.E0,-1.E0));
#42=AXIS2_PLACEMENT_3D('',#39,#40,#41);
#44=CARTESIAN_POINT('',(0.E0,2.5E0,0.E0));
#45=DIRECTION('',(0.E0,-1.E0,0.E0));
#46=DIRECTION('',(0.E0,0.E0,-1.E0));
#47=AXIS2_PLACEMENT_3D('',#44,#45,#46);
#49=CARTESIAN_POINT('',(0.E0,2.5E0,0.E0));
#50=DIRECTION('',(0.E0,-1.E0,0.E0));
#51=DIRECTION('',(1.E0,0.E0,0.E0));
#52=AXIS2_PLACEMENT_3D('',#49,#50,#51);
#54=CARTESIAN_POINT('',(0.E0,2.5E0,0.E0));
#55=DIRECTION('',(0.E0,-1.E0,0.E0));
#56=DIRECTION('',(-1.E0,0.E0,0.E0));
#57=AXIS2_PLACEMENT_3D('',#54,#55,#56);
#59=CARTESIAN_POINT('',(0.E0,2.5E0,2.E2));
#60=DIRECTION('',(0.E0,-1.E0,0.E0));
#61=DIRECTION('',(1.E0,0.E0,0.E0));
#62=AXIS2_PLACEMENT_3D('',#59,#60,#61);
#64=CARTESIAN_POINT('',(0.E0,2.5E0,2.E2));
#65=DIRECTION('',(0.E0,-1.E0,0.E0));
#66=DIRECTION('',(-1.E0,0.E0,0.E0));
#67=AXIS2_PLACEMENT_3D('',#64,#65,#66);
#69=DIRECTION('',(0.E0,-1.E0,0.E0));
#70=VECTOR('',#69,2.5E0);
#71=CARTESIAN_POINT('',(2.05E1,2.5E0,0.E0));
#72=LINE('',#71,#70);
#73=CARTESIAN_POINT('',(0.E0,0.E0,0.E0));
#74=DIRECTION('',(0.E0,-1.E0,0.E0));
#75=DIRECTION('',(1.E0,0.E0,0.E0));
#76=AXIS2_PLACEMENT_3D('',#73,#74,#75);
#78=CARTESIAN_POINT('',(0.E0,0.E0,0.E0));
#79=DIRECTION('',(0.E0,-1.E0,0.E0));
#80=DIRECTION('',(-1.E0,0.E0,0.E0));
#81=AXIS2_PLACEMENT_3D('',#78,#79,#80);
#83=CARTESIAN_POINT('',(0.E0,0.E0,2.E2));
#84=DIRECTION('',(0.E0,-1.E0,0.E0));
#85=DIRECTION('',(1.E0,0.E0,0.E0));
#86=AXIS2_PLACEMENT_3D('',#83,#84,#85);
#88=CARTESIAN_POINT('',(0.E0,0.E0,2.E2));
#89=DIRECTION('',(0.E0,-1.E0,0.E0));
#90=DIRECTION('',(-1.E0,0.E0,0.E0));
#91=AXIS2_PLACEMENT_3D('',#88,#89,#90);
#93=CARTESIAN_POINT('',(3.729049503404E-14,-3.E0,-3.045E2));
#94=DIRECTION('',(-1.E0,0.E0,0.E0));
#95=DIRECTION('',(0.E0,1.E0,0.E0));
#96=AXIS2_PLACEMENT_3D('',#93,#94,#95);
#98=CARTESIAN_POINT('',(-7.458099006807E-14,-3.E0,3.045E2));
#99=DIRECTION('',(1.E0,0.E0,0.E0));
#100=DIRECTION('',(0.E0,1.E0,0.E0));
#101=AXIS2_PLACEMENT_3D('',#98,#99,#100);
#103=CARTESIAN_POINT('',(0.E0,0.E0,0.E0));
#104=DIRECTION('',(0.E0,1.E0,0.E0));
#105=DIRECTION('',(0.E0,0.E0,-1.E0));
#106=AXIS2_PLACEMENT_3D('',#103,#104,#105);
#108=CARTESIAN_POINT('',(0.E0,0.E0,0.E0));
#109=DIRECTION('',(0.E0,-1.E0,0.E0));
#110=DIRECTION('',(0.E0,0.E0,-1.E0));
#111=AXIS2_PLACEMENT_3D('',#108,#109,#110);
#113=CARTESIAN_POINT('',(0.E0,-3.E0,0.E0));
#114=DIRECTION('',(0.E0,-1.E0,0.E0));
#115=DIRECTION('',(0.E0,0.E0,-1.E0));
#116=AXIS2_PLACEMENT_3D('',#113,#114,#115);
#118=DIRECTION('',(0.E0,-1.E0,0.E0));
#119=VECTOR('',#118,3.7E1);
#120=CARTESIAN_POINT('',(3.765788907378E-14,-3.E0,-3.075E2));
#121=LINE('',#120,#119);
#122=DIRECTION('',(0.E0,-1.E0,0.E0));
#123=VECTOR('',#122,3.7E1);
#124=CARTESIAN_POINT('',(-3.765788907378E-14,-3.E0,3.075E2));
#125=LINE('',#124,#123);
#126=CARTESIAN_POINT('',(0.E0,-3.E0,0.E0));
#127=DIRECTION('',(0.E0,1.E0,0.E0));
#128=DIRECTION('',(0.E0,0.E0,-1.E0));
#129=AXIS2_PLACEMENT_3D('',#126,#127,#128);
#131=CARTESIAN_POINT('',(0.E0,-4.E1,0.E0));
#132=DIRECTION('',(0.E0,-1.E0,0.E0));
#133=DIRECTION('',(0.E0,0.E0,-1.E0));
#134=AXIS2_PLACEMENT_3D('',#131,#132,#133);
#136=CARTESIAN_POINT('',(0.E0,-4.E1,0.E0));
#137=DIRECTION('',(0.E0,1.E0,0.E0));
#138=DIRECTION('',(0.E0,0.E0,-1.E0));
#139=AXIS2_PLACEMENT_3D('',#136,#137,#138);
#141=DIRECTION('',(0.E0,-1.E0,0.E0));
#142=VECTOR('',#141,2.5E0);
#143=CARTESIAN_POINT('',(-2.05E1,2.5E0,0.E0));
#144=LINE('',#143,#142);
#145=DIRECTION('',(0.E0,-1.E0,0.E0));
#146=VECTOR('',#145,2.5E0);
#147=CARTESIAN_POINT('',(7.E0,2.5E0,2.E2));
#148=LINE('',#147,#146);
#149=DIRECTION('',(0.E0,-1.E0,0.E0));
#150=VECTOR('',#149,2.5E0);
#151=CARTESIAN_POINT('',(-7.E0,2.5E0,2.E2));
#152=LINE('',#151,#150);
#153=CARTESIAN_POINT('',(2.530936718238E-14,-4.E1,-3.1E2));
#154=CARTESIAN_POINT('',(3.796405077357E-14,-3.E0,-3.1E2));
#155=VERTEX_POINT('',#153);
#156=VERTEX_POINT('',#154);
#157=CARTESIAN_POINT('',(3.765788907378E-14,-3.E0,-3.075E2));
#158=CARTESIAN_POINT('',(2.510525938252E-14,-4.E1,-3.075E2));
#159=VERTEX_POINT('',#157);
#160=VERTEX_POINT('',#158);
#161=CARTESIAN_POINT('',(-2.530936718238E-14,-4.E1,3.1E2));
#162=CARTESIAN_POINT('',(-3.796405077357E-14,-3.E0,3.1E2));
#163=VERTEX_POINT('',#161);
#164=VERTEX_POINT('',#162);
#165=CARTESIAN_POINT('',(-3.765788907378E-14,-3.E0,3.075E2));
#166=CARTESIAN_POINT('',(-2.510525938252E-14,-4.E1,3.075E2));
#167=VERTEX_POINT('',#165);
#168=VERTEX_POINT('',#166);
#169=CARTESIAN_POINT('',(3.729049503404E-14,2.5E0,-3.045E2));
#170=VERTEX_POINT('',#169);
#171=CARTESIAN_POINT('',(3.729049503404E-14,0.E0,-3.045E2));
#172=VERTEX_POINT('',#171);
#173=CARTESIAN_POINT('',(-7.458099006807E-14,2.5E0,3.045E2));
#174=VERTEX_POINT('',#173);
#175=CARTESIAN_POINT('',(-7.458099006807E-14,0.E0,3.045E2));
#176=VERTEX_POINT('',#175);
#177=CARTESIAN_POINT('',(2.05E1,0.E0,0.E0));
#178=CARTESIAN_POINT('',(-2.05E1,0.E0,0.E0));
#179=VERTEX_POINT('',#177);
#180=VERTEX_POINT('',#178);
#181=CARTESIAN_POINT('',(2.05E1,2.5E0,0.E0));
#182=VERTEX_POINT('',#181);
#183=CARTESIAN_POINT('',(-2.05E1,2.5E0,0.E0));
#184=VERTEX_POINT('',#183);
#185=CARTESIAN_POINT('',(7.E0,2.5E0,2.E2));
#186=CARTESIAN_POINT('',(7.E0,0.E0,2.E2));
#187=VERTEX_POINT('',#185);
#188=VERTEX_POINT('',#186);
#189=CARTESIAN_POINT('',(-7.E0,2.5E0,2.E2));
#190=CARTESIAN_POINT('',(-7.E0,0.E0,2.E2));
#191=VERTEX_POINT('',#189);
#192=VERTEX_POINT('',#190);
#193=CARTESIAN_POINT('',(0.E0,2.E0,0.E0));
#194=DIRECTION('',(0.E0,-1.E0,0.E0));
#195=DIRECTION('',(0.E0,0.E0,1.E0));
#196=AXIS2_PLACEMENT_3D('',#193,#194,#195);
#197=CYLINDRICAL_SURFACE('',#196,3.1E2);
#199=ORIENTED_EDGE('',*,*,#198,.F.);
#201=ORIENTED_EDGE('',*,*,#200,.T.);
#203=ORIENTED_EDGE('',*,*,#202,.T.);
#205=ORIENTED_EDGE('',*,*,#204,.F.);
#206=EDGE_LOOP('',(#199,#201,#203,#205));
#207=FACE_OUTER_BOUND('',#206,.F.);
#208=ADVANCED_FACE('',(#207),#197,.T.);
#209=CARTESIAN_POINT('',(0.E0,2.E0,0.E0));
#210=DIRECTION('',(0.E0,-1.E0,0.E0));
#211=DIRECTION('',(0.E0,0.E0,1.E0));
#212=AXIS2_PLACEMENT_3D('',#209,#210,#211);
#213=CYLINDRICAL_SURFACE('',#212,3.1E2);
#214=ORIENTED_EDGE('',*,*,#198,.T.);
#216=ORIENTED_EDGE('',*,*,#215,.T.);
#217=ORIENTED_EDGE('',*,*,#202,.F.);
#219=ORIENTED_EDGE('',*,*,#218,.F.);
#220=EDGE_LOOP('',(#214,#216,#217,#219));
#221=FACE_OUTER_BOUND('',#220,.F.);
#222=ADVANCED_FACE('',(#221),#213,.T.);
#223=CARTESIAN_POINT('',(0.E0,-3.E0,0.E0));
#224=DIRECTION('',(0.E0,-1.E0,0.E0));
#225=DIRECTION('',(0.E0,0.E0,1.E0));
#226=AXIS2_PLACEMENT_3D('',#223,#224,#225);
#227=TOROIDAL_SURFACE('',#226,3.045E2,5.5E0);
#229=ORIENTED_EDGE('',*,*,#228,.T.);
#231=ORIENTED_EDGE('',*,*,#230,.T.);
#233=ORIENTED_EDGE('',*,*,#232,.F.);
#234=ORIENTED_EDGE('',*,*,#215,.F.);
#235=EDGE_LOOP('',(#229,#231,#233,#234));
#236=FACE_OUTER_BOUND('',#235,.F.);
#237=ADVANCED_FACE('',(#236),#227,.T.);
#238=CARTESIAN_POINT('',(0.E0,-3.E0,0.E0));
#239=DIRECTION('',(0.E0,-1.E0,0.E0));
#240=DIRECTION('',(0.E0,0.E0,1.E0));
#241=AXIS2_PLACEMENT_3D('',#238,#239,#240);
#242=TOROIDAL_SURFACE('',#241,3.045E2,5.5E0);
#243=ORIENTED_EDGE('',*,*,#228,.F.);
#244=ORIENTED_EDGE('',*,*,#204,.T.);
#245=ORIENTED_EDGE('',*,*,#232,.T.);
#247=ORIENTED_EDGE('',*,*,#246,.F.);
#248=EDGE_LOOP('',(#243,#244,#245,#247));
#249=FACE_OUTER_BOUND('',#248,.F.);
#250=ADVANCED_FACE('',(#249),#242,.T.);
#251=CARTESIAN_POINT('',(0.E0,2.5E0,0.E0));
#252=DIRECTION('',(0.E0,-1.E0,0.E0));
#253=DIRECTION('',(0.E0,0.E0,1.E0));
#254=AXIS2_PLACEMENT_3D('',#251,#252,#253);
#255=PLANE('',#254);
#256=ORIENTED_EDGE('',*,*,#230,.F.);
#257=ORIENTED_EDGE('',*,*,#246,.T.);
#258=EDGE_LOOP('',(#256,#257));
#259=FACE_OUTER_BOUND('',#258,.F.);
#261=ORIENTED_EDGE('',*,*,#260,.F.);
#263=ORIENTED_EDGE('',*,*,#262,.F.);
#264=EDGE_LOOP('',(#261,#263));
#265=FACE_BOUND('',#264,.F.);
#267=ORIENTED_EDGE('',*,*,#266,.F.);
#269=ORIENTED_EDGE('',*,*,#268,.F.);
#270=EDGE_LOOP('',(#267,#269));
#271=FACE_BOUND('',#270,.F.);
#272=ADVANCED_FACE('',(#259,#265,#271),#255,.F.);
#273=CARTESIAN_POINT('',(0.E0,6.75E0,0.E0));
#274=DIRECTION('',(0.E0,-1.E0,0.E0));
#275=DIRECTION('',(1.E0,0.E0,0.E0));
#276=AXIS2_PLACEMENT_3D('',#273,#274,#275);
#277=CYLINDRICAL_SURFACE('',#276,2.05E1);
#279=ORIENTED_EDGE('',*,*,#278,.F.);
#281=ORIENTED_EDGE('',*,*,#280,.F.);
#282=ORIENTED_EDGE('',*,*,#260,.T.);
#284=ORIENTED_EDGE('',*,*,#283,.T.);
#285=EDGE_LOOP('',(#279,#281,#282,#284));
#286=FACE_OUTER_BOUND('',#285,.F.);
#287=ADVANCED_FACE('',(#286),#277,.F.);
#288=CARTESIAN_POINT('',(0.E0,0.E0,0.E0));
#289=DIRECTION('',(0.E0,-1.E0,0.E0));
#290=DIRECTION('',(0.E0,0.E0,1.E0));
#291=AXIS2_PLACEMENT_3D('',#288,#289,#290);
#292=PLANE('',#291);
#294=ORIENTED_EDGE('',*,*,#293,.T.);
#296=ORIENTED_EDGE('',*,*,#295,.F.);
#297=EDGE_LOOP('',(#294,#296));
#298=FACE_OUTER_BOUND('',#297,.F.);
#299=ORIENTED_EDGE('',*,*,#278,.T.);
#301=ORIENTED_EDGE('',*,*,#300,.T.);
#302=EDGE_LOOP('',(#299,#301));
#303=FACE_BOUND('',#302,.F.);
#305=ORIENTED_EDGE('',*,*,#304,.T.);
#307=ORIENTED_EDGE('',*,*,#306,.T.);
#308=EDGE_LOOP('',(#305,#307));
#309=FACE_BOUND('',#308,.F.);
#310=ADVANCED_FACE('',(#298,#303,#309),#292,.T.);
#311=CARTESIAN_POINT('',(0.E0,-3.E0,0.E0));
#312=DIRECTION('',(0.E0,-1.E0,0.E0));
#313=DIRECTION('',(0.E0,0.E0,1.E0));
#314=AXIS2_PLACEMENT_3D('',#311,#312,#313);
#315=TOROIDAL_SURFACE('',#314,3.045E2,3.E0);
#317=ORIENTED_EDGE('',*,*,#316,.T.);
#319=ORIENTED_EDGE('',*,*,#318,.T.);
#321=ORIENTED_EDGE('',*,*,#320,.F.);
#322=ORIENTED_EDGE('',*,*,#293,.F.);
#323=EDGE_LOOP('',(#317,#319,#321,#322));
#324=FACE_OUTER_BOUND('',#323,.F.);
#325=ADVANCED_FACE('',(#324),#315,.F.);
#326=CARTESIAN_POINT('',(0.E0,-3.E0,0.E0));
#327=DIRECTION('',(0.E0,-1.E0,0.E0));
#328=DIRECTION('',(0.E0,0.E0,1.E0));
#329=AXIS2_PLACEMENT_3D('',#326,#327,#328);
#330=TOROIDAL_SURFACE('',#329,3.045E2,3.E0);
#331=ORIENTED_EDGE('',*,*,#316,.F.);
#332=ORIENTED_EDGE('',*,*,#295,.T.);
#333=ORIENTED_EDGE('',*,*,#320,.T.);
#335=ORIENTED_EDGE('',*,*,#334,.F.);
#336=EDGE_LOOP('',(#331,#332,#333,#335));
#337=FACE_OUTER_BOUND('',#336,.F.);
#338=ADVANCED_FACE('',(#337),#330,.F.);
#339=CARTESIAN_POINT('',(0.E0,2.E0,0.E0));
#340=DIRECTION('',(0.E0,-1.E0,0.E0));
#341=DIRECTION('',(0.E0,0.E0,1.E0));
#342=AXIS2_PLACEMENT_3D('',#339,#340,#341);
#343=CYLINDRICAL_SURFACE('',#342,3.075E2);
#345=ORIENTED_EDGE('',*,*,#344,.F.);
#346=ORIENTED_EDGE('',*,*,#334,.T.);
#348=ORIENTED_EDGE('',*,*,#347,.T.);
#350=ORIENTED_EDGE('',*,*,#349,.F.);
#351=EDGE_LOOP('',(#345,#346,#348,#350));
#352=FACE_OUTER_BOUND('',#351,.F.);
#353=ADVANCED_FACE('',(#352),#343,.F.);
#354=CARTESIAN_POINT('',(0.E0,2.E0,0.E0));
#355=DIRECTION('',(0.E0,-1.E0,0.E0));
#356=DIRECTION('',(0.E0,0.E0,1.E0));
#357=AXIS2_PLACEMENT_3D('',#354,#355,#356);
#358=CYLINDRICAL_SURFACE('',#357,3.075E2);
#359=ORIENTED_EDGE('',*,*,#344,.T.);
#361=ORIENTED_EDGE('',*,*,#360,.T.);
#362=ORIENTED_EDGE('',*,*,#347,.F.);
#363=ORIENTED_EDGE('',*,*,#318,.F.);
#364=EDGE_LOOP('',(#359,#361,#362,#363));
#365=FACE_OUTER_BOUND('',#364,.F.);
#366=ADVANCED_FACE('',(#365),#358,.F.);
#367=CARTESIAN_POINT('',(0.E0,-4.E1,0.E0));
#368=DIRECTION('',(0.E0,-1.E0,0.E0));
#369=DIRECTION('',(0.E0,0.E0,1.E0));
#370=AXIS2_PLACEMENT_3D('',#367,#368,#369);
#371=PLANE('',#370);
#372=ORIENTED_EDGE('',*,*,#218,.T.);
#373=ORIENTED_EDGE('',*,*,#200,.F.);
#374=EDGE_LOOP('',(#372,#373));
#375=FACE_OUTER_BOUND('',#374,.F.);
#376=ORIENTED_EDGE('',*,*,#349,.T.);
#377=ORIENTED_EDGE('',*,*,#360,.F.);
#378=EDGE_LOOP('',(#376,#377));
#379=FACE_BOUND('',#378,.F.);
#380=ADVANCED_FACE('',(#375,#379),#371,.T.);
#381=CARTESIAN_POINT('',(0.E0,6.75E0,0.E0));
#382=DIRECTION('',(0.E0,-1.E0,0.E0));
#383=DIRECTION('',(1.E0,0.E0,0.E0));
#384=AXIS2_PLACEMENT_3D('',#381,#382,#383);
#385=CYLINDRICAL_SURFACE('',#384,2.05E1);
#386=ORIENTED_EDGE('',*,*,#300,.F.);
#387=ORIENTED_EDGE('',*,*,#283,.F.);
#388=ORIENTED_EDGE('',*,*,#262,.T.);
#389=ORIENTED_EDGE('',*,*,#280,.T.);
#390=EDGE_LOOP('',(#386,#387,#388,#389));
#391=FACE_OUTER_BOUND('',#390,.F.);
#392=ADVANCED_FACE('',(#391),#385,.F.);
#393=CARTESIAN_POINT('',(0.E0,6.75E0,2.E2));
#394=DIRECTION('',(0.E0,-1.E0,0.E0));
#395=DIRECTION('',(1.E0,0.E0,0.E0));
#396=AXIS2_PLACEMENT_3D('',#393,#394,#395);
#397=CYLINDRICAL_SURFACE('',#396,7.E0);
#399=ORIENTED_EDGE('',*,*,#398,.F.);
#400=ORIENTED_EDGE('',*,*,#266,.T.);
#402=ORIENTED_EDGE('',*,*,#401,.T.);
#403=ORIENTED_EDGE('',*,*,#304,.F.);
#404=EDGE_LOOP('',(#399,#400,#402,#403));
#405=FACE_OUTER_BOUND('',#404,.F.);
#406=ADVANCED_FACE('',(#405),#397,.F.);
#407=CARTESIAN_POINT('',(0.E0,6.75E0,2.E2));
#408=DIRECTION('',(0.E0,-1.E0,0.E0));
#409=DIRECTION('',(1.E0,0.E0,0.E0));
#410=AXIS2_PLACEMENT_3D('',#407,#408,#409);
#411=CYLINDRICAL_SURFACE('',#410,7.E0);
#412=ORIENTED_EDGE('',*,*,#398,.T.);
#413=ORIENTED_EDGE('',*,*,#306,.F.);
#414=ORIENTED_EDGE('',*,*,#401,.F.);
#415=ORIENTED_EDGE('',*,*,#268,.T.);
#416=EDGE_LOOP('',(#412,#413,#414,#415));
#417=FACE_OUTER_BOUND('',#416,.F.);
#418=ADVANCED_FACE('',(#417),#411,.F.);
#422=DIMENSIONAL_EXPONENTS(0.E0,0.E0,0.E0,0.E0,0.E0,0.E0,0.E0);
#424=PLANE_ANGLE_MEASURE_WITH_UNIT(PLANE_ANGLE_MEASURE(1.745329251994E-2),#423);
#425=(CONVERSION_BASED_UNIT('DEGREE',#424)NAMED_UNIT(*)PLANE_ANGLE_UNIT());
#427=UNCERTAINTY_MEASURE_WITH_UNIT(LENGTH_MEASURE(8.778067000957E-2),#421,
'closure',
'Maximum model space distance between geometric entities at asserted connectivities');
#428=(GEOMETRIC_REPRESENTATION_CONTEXT(3)GLOBAL_UNCERTAINTY_ASSIGNED_CONTEXT((
#427))GLOBAL_UNIT_ASSIGNED_CONTEXT((#421,#425,#426))REPRESENTATION_CONTEXT
('ID1','3'));
#430=APPLICATION_CONTEXT(
'CONFIGURATION CONTROLLED 3D DESIGNS OF MECHANICAL PARTS AND ASSEMBLIES');
#431=APPLICATION_PROTOCOL_DEFINITION('international standard',
'config_control_design',1994,#430);
#432=DESIGN_CONTEXT('',#430,'design');
#433=MECHANICAL_CONTEXT('',#430,'mechanical');
#434=PRODUCT('43257-00','43257-00','NOT SPECIFIED',(#433));
#435=PRODUCT_DEFINITION_FORMATION_WITH_SPECIFIED_SOURCE('1','LAST_VERSION',#434,
.MADE.);
#439=PRODUCT_CATEGORY('part','');
#440=PRODUCT_RELATED_PRODUCT_CATEGORY('detail','',(#434));
#441=PRODUCT_CATEGORY_RELATIONSHIP('','',#439,#440);
#442=SECURITY_CLASSIFICATION_LEVEL('unclassified');
#443=SECURITY_CLASSIFICATION('','',#442);
#444=CC_DESIGN_SECURITY_CLASSIFICATION(#443,(#435));
#445=APPROVAL_STATUS('approved');
#446=APPROVAL(#445,'');
#447=CC_DESIGN_APPROVAL(#446,(#443,#435,#436));
#448=CALENDAR_DATE(125,10,12);
#449=COORDINATED_UNIVERSAL_TIME_OFFSET(1,0,.AHEAD.);
#450=LOCAL_TIME(16,32,5.3E1,#449);
#451=DATE_AND_TIME(#448,#450);
#452=APPROVAL_DATE_TIME(#451,#446);
#453=DATE_TIME_ROLE('creation_date');
#454=CC_DESIGN_DATE_AND_TIME_ASSIGNMENT(#451,#453,(#436));
#455=DATE_TIME_ROLE('classification_date');
#456=CC_DESIGN_DATE_AND_TIME_ASSIGNMENT(#451,#455,(#443));
#457=PERSON('UNSPECIFIED','UNSPECIFIED',$,$,$,$);
#458=ORGANIZATION('UNSPECIFIED','UNSPECIFIED','UNSPECIFIED');
#459=PERSON_AND_ORGANIZATION(#457,#458);
#460=APPROVAL_ROLE('approver');
#461=APPROVAL_PERSON_ORGANIZATION(#459,#446,#460);
#462=PERSON_AND_ORGANIZATION_ROLE('creator');
#463=CC_DESIGN_PERSON_AND_ORGANIZATION_ASSIGNMENT(#459,#462,(#435,#436));
#464=PERSON_AND_ORGANIZATION_ROLE('design_supplier');
#465=CC_DESIGN_PERSON_AND_ORGANIZATION_ASSIGNMENT(#459,#464,(#435));
#466=PERSON_AND_ORGANIZATION_ROLE('classification_officer');
#467=CC_DESIGN_PERSON_AND_ORGANIZATION_ASSIGNMENT(#459,#466,(#443));
#468=PERSON_AND_ORGANIZATION_ROLE('design_owner');
#469=CC_DESIGN_PERSON_AND_ORGANIZATION_ASSIGNMENT(#459,#468,(#434));
#5=CIRCLE('',#4,3.1E2);
#18=CIRCLE('',#17,3.1E2);
#23=CIRCLE('',#22,5.5E0);
#28=CIRCLE('',#27,5.5E0);
#33=CIRCLE('',#32,3.1E2);
#38=CIRCLE('',#37,3.1E2);
#43=CIRCLE('',#42,3.045E2);
#48=CIRCLE('',#47,3.045E2);
#53=CIRCLE('',#52,2.05E1);
#58=CIRCLE('',#57,2.05E1);
#63=CIRCLE('',#62,7.E0);
#68=CIRCLE('',#67,7.E0);
#77=CIRCLE('',#76,2.05E1);
#82=CIRCLE('',#81,2.05E1);
#87=CIRCLE('',#86,7.E0);
#92=CIRCLE('',#91,7.E0);
#97=CIRCLE('',#96,3.E0);
#102=CIRCLE('',#101,3.E0);
#107=CIRCLE('',#106,3.045E2);
#112=CIRCLE('',#111,3.045E2);
#117=CIRCLE('',#116,3.075E2);
#130=CIRCLE('',#129,3.075E2);
#135=CIRCLE('',#134,3.075E2);
#140=CIRCLE('',#139,3.075E2);
#198=EDGE_CURVE('',#155,#156,#9,.T.);
#200=EDGE_CURVE('',#155,#163,#5,.T.);
#202=EDGE_CURVE('',#163,#164,#13,.T.);
#204=EDGE_CURVE('',#156,#164,#38,.T.);
#215=EDGE_CURVE('',#156,#164,#33,.T.);
#218=EDGE_CURVE('',#155,#163,#18,.T.);
#228=EDGE_CURVE('',#156,#170,#23,.T.);
#230=EDGE_CURVE('',#170,#174,#43,.T.);
#232=EDGE_CURVE('',#164,#174,#28,.T.);
#246=EDGE_CURVE('',#170,#174,#48,.T.);
#260=EDGE_CURVE('',#182,#184,#53,.T.);
#262=EDGE_CURVE('',#184,#182,#58,.T.);
#266=EDGE_CURVE('',#187,#191,#63,.T.);
#268=EDGE_CURVE('',#191,#187,#68,.T.);
#278=EDGE_CURVE('',#179,#180,#77,.T.);
#280=EDGE_CURVE('',#182,#179,#72,.T.);
#283=EDGE_CURVE('',#184,#180,#144,.T.);
#293=EDGE_CURVE('',#172,#176,#107,.T.);
#295=EDGE_CURVE('',#172,#176,#112,.T.);
#300=EDGE_CURVE('',#180,#179,#82,.T.);
#304=EDGE_CURVE('',#188,#192,#87,.T.);
#306=EDGE_CURVE('',#192,#188,#92,.T.);
#316=EDGE_CURVE('',#172,#159,#97,.T.);
#318=EDGE_CURVE('',#159,#167,#130,.T.);
#320=EDGE_CURVE('',#176,#167,#102,.T.);
#334=EDGE_CURVE('',#159,#167,#117,.T.);
#344=EDGE_CURVE('',#159,#160,#121,.T.);
#347=EDGE_CURVE('',#167,#168,#125,.T.);
#349=EDGE_CURVE('',#160,#168,#135,.T.);
#360=EDGE_CURVE('',#160,#168,#140,.T.);
#398=EDGE_CURVE('',#187,#188,#148,.T.);
#401=EDGE_CURVE('',#191,#192,#152,.T.);
#419=CLOSED_SHELL('',(#208,#222,#237,#250,#272,#287,#310,#325,#338,#353,#366,
#380,#392,#406,#418));
#420=MANIFOLD_SOLID_BREP('',#419);
#421=(LENGTH_UNIT()NAMED_UNIT(*)SI_UNIT(.MILLI.,.METRE.));
#423=(NAMED_UNIT(*)PLANE_ANGLE_UNIT()SI_UNIT($,.RADIAN.));
#426=(NAMED_UNIT(*)SI_UNIT($,.STERADIAN.)SOLID_ANGLE_UNIT());
#429=ADVANCED_BREP_SHAPE_REPRESENTATION('',(#420),#428);
#436=PRODUCT_DEFINITION('design','',#435,#432);
#437=PRODUCT_DEFINITION_SHAPE('','SHAPE FOR 43257-00.',#436);
#438=SHAPE_DEFINITION_REPRESENTATION(#437,#429);
ENDSEC;
END-ISO-10303-21;
